Home
Discussion
Biography
Articles
Images
Audio & Video

Lyrics
Tabs & Tunings
Gear
Links
Contact

 
 




"That's Alright" by Kelly Joe Phelps
from "Roll Away The Stone"


Tuning: Standard (EADGBE)
capo: 1st fret
time: 4/4
tempo: 76

	  F					D7/F#
  |        |        |        |        |          |        |        |        |
|--------|-------------------------------------|--------------------------------0--|
|--------|-----1----------1--------------------|-1-----------3-----1---3----4------|
|-0---1--|-2-----------2---------2----0--1--2--|-----2-----------------2---(0)-----|
|-0------|----------3-----3-----------0--------|----------0-----0-----------0------|
|--------|-------------------------------------|-----------------------------------|
|--------|-1-----------------1-----------------|-2-----------------2---------------|


 C/G		   Em7		 Am      C/G      D7/F#
  |        |        |        |        |        |        |        |
|-----------------------0-----------|--------------------------------0--|
|-----1----------3-----------3------|-1--------1--------1---3----4------|
|----------0--1---------------------|-2--------0--------2---2---(0)-----|
|----------0-----------------0------|-2--------2--------0---------------|
|--------------------------------0--|-----------------------------------|
|-3-----------------0---------------|-----3--------2--------------------|


 C/G                                   G
  |        |        |        |          |        |        |        |
|----------0--3-----3---0----------3--|-------------------------------------|
|-----1----------1-----------3sl>5----|-3--------0-----0-----0-----------1--|
|-------------------------------------|-----0-------3-----------0-----------|
|----------2-----------------2--------|----------0--------3--------1--2-----|
|-------------------------------------|-------------------------------------|
|-3-----------------3-----------------|-3-----------------3-----------------|


  turnaround                                     C/G
  |        |        |        |          |        |        |        |          |
|----------3--2--1--0-----------------|-------------------------------------|----
|----------------------1--------------|-----1----1-----1--------------------|----
|-----0-------------------0-----------|-------------0---------0----0---1----|-2--
|----------------------------0---1----|-2--------2-----------------0--------|----etc...
|-------------------------------------|-------------------------------------|----
|-3--------0--------1--------2--------|-3-----------------3-----------------|-1--

 

  Website by Jean-François G.
Background Image by Michael Bystrom
Design mostly stolen to SLSY
top of page top