Home
Discussion
Biography
Articles
Images
Audio & Video

Lyrics
Tabs & Tunings
Gear
Links
Contact

 
 




'Taylor John' by Kelly Joe Phelps
From 'Sky Like A Broken Clock'

Tuning : double drop-D (DADGBD)
Time : 4/4


p :Pull off
h :Hammer on
sl: slide
/ : slide up
\ : slide down

intro:

 D5                           Dsus4               D5
  |     |     |     |     |     |     |     |     |     |     |     |    
|-----------------------|----0----------------0-|-----------------------|
|-3--------------3------|----------------3------|----------3----------3-|
|----------2----------2-|----------0------------|-0h2------------2------|
|-------0-----------0---|-------0-----------0---|-------0-----------0---|
|-----------------------|-----------------------|-----------------------|
|-0-----------0---------|-0-----------0---------|-0-----------0---------|

        Dsus4                                                    
  |     |     |     |
|----0------------------|
|-----------------------|
|----------0-----0------|
|-------0---------------| x2
|-----------------------|
|-0-----------0---------|

verse:

D5                           Dsus4               Am7
  |     |     |     |     |     |     |     |     |     |     |     |    
|-----------------------|-----------------------|-----------------------|
|-3--------------3------|-3--------------3------|-1--------------1------|
|----------2----------2-|----------0------------|----------0------------|
|-------0-----------0---|-------0-----------0---|-------2-----------2---|
|-----------------------|-----------------------|-0-----------0---------|
|-0-----------0---------|-0-----------0---------|-----------------------|

  Taylor     had    a    wife,    she     was     married   to    the 




 Am7                     Cadd9                
  |     |     |     |     |     |     |     |     |     |     |     |    
|-----------------------|----------------0------|----------------0------|
|-1--------------1------|-3-------------------3-|-3-------------------3-|
|----------0------------|----------0------------|----------0------------|
|-------2-----------2---|-------2-----------2---|-------2-----------2---|
|-0-----------0---------|-3-----------3---------|-3-----------3---------|
|-----------------------|-----------------------|-----------------------|
     mirror          she could make her glass-eyed lover  buy    a 


 G/B                      D5                   -                Dsus4       
  |     |     |     |     |     |     |     |     |     |     |     |    
|-----------------------|-----------------------|-----------------------|
|-3--------------3------|----3-----3------------|-3--------3--------3---|
|----------0------------|-2--------------2----2-|----2-----------0----0-|
|-------0-----------0---|-------0-----------0---|-------0-----------0---|...
|-2-----------2---------|-----------------------|-----------------------|
|-----------------------|-0-----------0---------|-0-----------0---------|

 drink    and   then   another   round

prechorus:

 Am                      Dmadd9                  D5                       
  |     |     |     |     |     |     |     |     |     |     |     |    
|-----------------------|-----------------------|-----------------------|
|-1--------------1/-----|-6--------------6\-----|-3--------3--------3---|
|----------2------------|----------9------------|----2-----------0----0-|
|-------2-----------0---|-------0-----------0---|-------0-----------0---|(x2)
|-0-----------0---------|-----------------------|-----------------------|
|-----------------------|-0-----------0---------|-0-----------0---------|

chorus:


 Fsus2                   G5                      G/E
  
  |     |     |     |     |     |     |     |     |     |     |     |
|-----------------------|-----------------------|-----------------------|
|-1--------1-----0------|-3--------3-----3------|----------------0------|
|-----------------------|-----------------------|----------0------------|
|-------0-----------0---|-------0-----------0---|-------0-----------2---|
|-----------------------|-----------------------|-----------------------|
|-3-----------3---------|-5-----------3---------|-2-----------2---------|
It's a scavenger hunt in the best of times       A one-armed man with a 


 Fsus2                  
  |     |     |     |     |     |     |     |
|-----------------------|-----------------------|
|-1--------------1------|-1--------------1------|
|----------0------------|----------0------------|
|-------0-----------0---|-------0-----------0---|
|-----------------------|-----------------------|
|-3-----------3---------|-3-----------3---------|
  box of dimes


 G/E                      Fsus2                G5       
  |     |     |     |     |     |     |     |     |     |     |     |    
|-----------------------|-----------------------|-----------------------|
|-0--------------0------|-1--------------1------|>3--------------3------|
|----------0------------|----------0------------|----------0------------|
|-------0-----------0---|-------0-----------0---|-------0-----------0---|...
|-----------------------|-----------------------|-----------------------|
|-2-----------2---------|-3------------3--------|>5-----------5---------|
  Throw   the  stick  and  let  the   bulldog    roll

 

  Website by Jean-François G.
Background Image by Michael Bystrom
Design mostly stolen to SLSY
top of page top